Nếu như anh đến
Sáng tác: Nguyễn Đức Cường
Thể hiện: Văn Mai Hương

Video hướng dẩn chơi Guitar bài này
http://kenhdaihoc.com/forum/showthread.php?t=1713






Intro:
E |--------------------------------------------------0-----------
B |------------0------------------------0--------3--------------
G |----------------2--0---------------------2-------------------
D |-------2-2---2--2---2-2-----2--2---2----2----------------
A |--------------------------------------------------------------
E |--------------------------------------------------------------


-------Em----------------
Làn tóc rối bờ môi khô
--------------------Em/G-----------
Hàng mi buông mắt đêm thật buồn
-----------------------Bm-----
Ngày qua ngày đợi mong ǵ
---------------------------------------D------------
Cần nhiều lắm những yêu thương ngọt ngào
---------------C------------
Trái tim ôi thôi thôi lặng thầm
--------Em----------
Có ai cầm tay em gọi tên em
--------------------Em/G-----------
Và yêu em mỗi khi giận hờn
-----------------------Bm--------------------------------D------------
Để đêm về từng hơi thở c̣n nồng ấm chiếc hôn ta nồng nàng
---------------C------------
Nói cho nhau những hẹn thề
---------G---------------------D----
Có ai nếu như ngày anh bước đến
--------------------Em----
V́ anh đă yêu thương em
-----------------------D----
Hăy đến với em chân t́nh
---------C----------------G-----
Trái tim đừng làm em bối rối
-------------------Am----------
Biết đâu khi ngày mai thức dậy
-----------C------------------------D------
Yêu thương kia mong manh tựa cơn gió
-----Em---
Bay qua


Am-------------D7------------------------------G-------C
Này người yêu lần đầu tiên yêu anh ḷng nhiều lo lắng
Am-------------D7--------Em
V́ t́nh yêu là niềm tin với em
-----C-----
Người dấu yêu

Xem thêm bài khác